  0
SECTION
  2
HEADER
  9
$ACADVER
  1
AC1009
  9
$EXTMAX
 10
69.6500015258789
 20
33.7000007629395
 30
0.0
  9
$EXTMIN
 10
-69.6500015258789
 20
-33.7000007629395
 30
0.0
  9
$INSUNITS
 70
     4
  9
$LUNITS
 70
     2
  9
$LUPREC
 70
     4
  9
$MEASUREMENT
 70
     1
  0
ENDSEC
  0
SECTION
  2
TABLES
  0
TABLE
  2
LAYER
 70
     1
  0
LAYER
  2
0
 70
     0
 62
     7
  6
Continuous
  0
ENDTAB
  0
TABLE
  2
APPID
 70
     1
  0
APPID
  2
ACAD
 70
     0
  0
ENDTAB
  0
ENDSEC
  0
SECTION
  2
ENTITIES
  0
POLYLINE
  8
0
 66
     1
 10
0.0
 20
0.0
 30
0.0
 70
     1
  0
VERTEX
  8
0
 10
-69.65
 20
33.7
 42
0.0
  0
VERTEX
  8
0
 10
69.65
 20
33.7
 42
0.0
  0
VERTEX
  8
0
 10
69.65
 20
-33.7
 42
0.0
  0
VERTEX
  8
0
 10
-69.65
 20
-33.7
 42
0.0
  0
SEQEND
  0
CIRCLE
  8
0
 10
-47.296
 20
-13.95
 30
0.0
 40
3.25
  0
CIRCLE
  8
0
 10
-57.296
 20
-3.95
 30
0.0
 40
3.25
  0
CIRCLE
  8
0
 10
-47.296
 20
-3.95
 30
0.0
 40
3.25
  0
CIRCLE
  8
0
 10
-47.296
 20
6.05
 30
0.0
 40
3.25
  0
CIRCLE
  8
0
 10
57.919
 20
15.05
 30
0.0
 40
1.3
  0
CIRCLE
  8
0
 10
-25.281
 20
15.05
 30
0.0
 40
1.3
  0
CIRCLE
  8
0
 10
57.919
 20
-22.95
 30
0.0
 40
1.3
  0
CIRCLE
  8
0
 10
-25.281
 20
-22.95
 30
0.0
 40
1.3
  0
CIRCLE
  8
0
 10
-37.296
 20
-3.95
 30
0.0
 40
3.25
  0
POLYLINE
  8
0
 66
     1
 10
0.0
 20
0.0
 30
0.0
 70
     1
  0
VERTEX
  8
0
 10
-28.697
 20
11.65
 42
0.0
  0
VERTEX
  8
0
 10
-16.197
 20
11.65
 42
0.0
  0
VERTEX
  8
0
 10
-16.197
 20
14.65
 42
0.0
  0
VERTEX
  8
0
 10
48.803
 20
14.65
 42
0.0
  0
VERTEX
  8
0
 10
48.803
 20
11.65
 42
0.0
  0
VERTEX
  8
0
 10
61.303
 20
11.65
 42
0.0
  0
VERTEX
  8
0
 10
61.303
 20
-18.35
 42
0.0
  0
VERTEX
  8
0
 10
-28.697
 20
-18.35
 42
0.0
  0
SEQEND
  0
POLYLINE
  8
0
 66
     1
 10
0.0
 20
0.0
 30
0.0
 70
     1
  0
VERTEX
  8
0
 10
-23.947
 20
-14.95
 42
0.0
  0
VERTEX
  8
0
 10
-23.947
 20
7.05
 42
0.0
  0
VERTEX
  8
0
 10
56.553
 20
7.05
 42
0.0
  0
VERTEX
  8
0
 10
56.553
 20
-14.95
 42
0.0
  0
SEQEND
  0
POLYLINE
  8
0
 66
     1
 10
0.0
 20
0.0
 30
0.0
 70
     1
  0
VERTEX
  8
0
 10
-23.25
 20
-13.75
 42
0.0
  0
VERTEX
  8
0
 10
-23.25
 20
6.25
 42
0.0
  0
VERTEX
  8
0
 10
55.7391558074477
 20
6.25
 42
0.0
  0
VERTEX
  8
0
 10
55.75
 20
-13.75
 42
0.0
  0
SEQEND
  0
ENDSEC
  0
EOF
